みさちのにっきちょう

ハイパムフィクサーというバンドのベースの人がどーでもいいことを書いています。Twitter@misachi_bass

夜の本気ダンス「Crazy Dancer」をベースで弾いたよ(超適当なベースTABつき)

【ごめんなさい】

ここに動画をアップしていたんだけど、著作権の問題に引っかかってしまって削除しました。動画はないけど、TAB見たい人のために、ここだけ残しておくね。イマジネーションで弾いてくれ(笑)

【以下本文】

 

夜の本気ダンス「Crazy Dancer」を適当に耳コピしました。

適当に書いてみたので、よかったら見てね。夜の本気ダンスすごくいいよ。

 

【イントロ】

----------------------

----------------------

--------4---3---1----

-3--------------------

 

【Aメロ】

----------------------------

----------------------------

-----------6-6---8--8-8---

-3---6-6-------------------

 

【Bメロ】

----------------------------------------------------

---------13-------------------10-------------------

--6-----------------8-------------------------------

-----------------------------------------5-5-5-5---

【サビ】

-------------------------------------------------------------

-------------------------------------------------------------

-------------1-111111--3-333333------------------------

-3-333333---------------------------1-111111-3-33333

 

f:id:s_awa:20160619080043p:plain

 

どうやって撮ってるか書きました

 

misachi.hatenadiary.jp

 

他の演奏してみたもみてね

 

misachi.hatenadiary.jp

misachi.hatenadiary.jp

misachi.hatenadiary.jp